Wyszukiwarki
Wyszalnia to 3 szybkie i wygodne wyszukiwarki karaoke, tabulatur i tekstów
Trzy wyszukiwarki
Narzędzia
Wygoda przy pracy z tabulaturami, transponowanie, wyszukiwanie wariacji akordów, samodzielne sformatowanie i drukowanie
Transponowanie, formatowanie i drukowanie
Indywidualizacja
Tworzenie przez zarejestrowanego użytkownika własnych repertuarów karaoke i tabulatur czy nut.
Własny repertuar karaoke i tabulatur
Społeczności
Podziel się swoimi dokonaniami i fascynacjami muzycznymi z innymi, komentuj a będziesz skomentowany.
Społeczeństwo
wyszalnia.pl
Zmiany, zmiany, zmiany



Ekran slajdow
Z przyczyn niezależnych od nas, chwilowo nie działają funkcje związane z zapisem do bazy. Przepraszamy.
Mnóstwo filmów karaoke w jednym miejscu z szybkim wyszukiwaniem ,automatycznym szukaniem tekstu i scrollowaniem.
Skuteczna i wygodna wyszukiwarka tabulatur, chwytów, tekstów, tłumaczeń i filmów karaoke.
Błyskawiczne wyszukiwanie tekstów piosenek i ich tłumaczeń.
Ostatnio dodane
Karaoke genesis - squonk
Karaoke genesis - squonk
Tabulatury (9 ostatnio dodanych)
Tabulatura poison - every rose has its thorn (ver 3)
#----------------------------------PLEASE NOTE---------------------------------#
#This file is the author's own work and represents their interpretation of the #
#song. You may only use this file for private study, scholarship, or research. #
#------------------------------------------------------------------------------##

EVERY ROSE HAS IT'S THORN
As recorded by Poison
(From the 1988 Album OPEN UP AND SAY...AHH!)

Words and Music by B. Dall, C.C. Deville, B. Michaels and R. Rockett


Cadd9 G5 D Cadd9(type 2)
x 3 2 0 3 3 3 x 0 0 3 3 x x 0 2 3 2 x 3 2 0 3 0

Em Dsus4 G/B
0 2 2 0 0 0 x x 0 2 3 3 x 2 0 0 3 x

Gtr I (Eb Ab Db Gb Bb Eb) - 'Gtr. I - acoustic'
Gtr II (Eb Ab Db Gb Bb Eb) - 'Gtr. II - elec. rythym'
Gtr III (Eb Ab Db Gb Bb Eb) - 'Gtr. III - elec. lead w/distortion'
Gtr IV (Eb Ab Db Gb Bb Eb) - 'Gtr. IV -elec. overdub lead'

Intro
Slow Rock Q=70
G5 Cadd9
4/4
Gtr I
H Q E. S Q E. S E E S S S S E E E. S +S S E S E S
|------------3-|----3--3-3-3-3-3-3-3-|-3-3-3--3-(3)-3-3-3-3-3-|
|------------3-|----3--3-3-3-3-3-3-3-|-3-3-3--3-(3)-3-3-3-3-3-|
|------------0-|----0--0-0-0-0-0-0-0-|-0-0-0--0-(0)-0-0-0-0-0-|
|--------------|---------0-0-0-0-0-0-|-2-2-2--2-(2)-2-2-2-2-2-|
|--------------|---------------------|-3-3-3--3-(3)-3-3-3-3-3-|
|--------------|-3-------3-3-3-3-3-3-|------------------------|


G5 Cadd9
E E E. S +S S E S E S E E E. S +S S E S S S S
|-3-3-3--3-(3)-3-3-3-3-3-|-3-3-3--3-(3)-3-3-3-3-3-3-||
|-3-3-3--3-(3)-3-3-3-3-3-|-3-3-3--3-(3)-3-3-3-3-3-3-||
|-0-0-0--0-(0)-0-0-0-0-0-|-0-0-0--0-(0)-0-0-0-0-0-0-||
|-0-0-0----------0-0-0-0-|-2-2-2--2-(2)-2-2-2-2-2-2-||
|------------------------|-3-3-3--3-(3)-3-3-3-3-3-3-||
|-3-3-3----------3-3-3-3-|--------------------------||


1st Verse
G5
E E E. S +S S E S S S S
|-3-3-3--3-(3)-3-3-3-3-3-3--|
|-3-3-3--3-(3)-3-3-3-3-3-3--|
|-0-0-0--0-(0)-0-0-0-0-0-0--|
|-0-0-0--0-(0)-0-0-0-0-0-0--|
|---------------------------|
|-3-3-3--3-(3)-3-3-3-3-3-3--|


Cadd9 G5
E E E S S +S S S S +S E S
|-3-3-3-3-3-(3)-3-3-3-(3)-3-3-|
|-3-3-3-3-3-(3)-3-3-3-(3)-3-3-|
|-0-0-0-0-0-(0)-0-0-0-(0)-0-0-|
|-2-2-2-2-2-(2)-2-2-2-(2)-2-0-|
|-3-3-3-3-3-(3)-3-3-3-(3)-3---|
|---------------------------3-|


Cadd9
+Q E. S +S S S S +S S S S Q E S S +S E S +S E S
|-(3)--3--3-(3)-3-3-3-(3)-3-3-3-|-3--3-3-3-(3)-3-3-(3)-3-3---|
|-(3)--3--3-(3)-3-3-3-(3)-3-3-3-|-3--3-3-3-(3)-3-3-(3)-3-3---|
|-(0)--0--0-(0)-0-0-0-(0)-0-0-0-|-0--0-0-0-(0)-0-0-(0)-0-0---|
|-(0)--0--0-(0)-0-0-0-(0)-0-0-0-|-2--2-2-2-(2)-2-2-(2)-2-2---|
|-------------------------------|-3--3-3-3-(3)-3-3-(3)-3-3---|
|-(3)--3--3-(3)-3-3-3-(3)-3-3-3-|----------------------------|


G5 Cadd9 G5 Cadd9 D DsDs4 DsDs4
Q E S S Q S E S Q S E S Q S E S Q S E S +S S E S E S
|-3--3-3-3-3--3-3-3-|-3--3-3-3-3--3-3-3-|-2--3-2-2-(2)-2-2-3-2-2-|
|-3--3-3-3-3--3-3-3-|-3--3-3-3-3--3-3-3-|-3--3-3-3-(3)-3-3-3-3-3-|
|-0--0-0-0-0--0-0-0-|-0--0-0-0-0--0-0-0-|-2--2-2-2-(2)-2-2-2-2-2-|
|-0--0-0-0-2--2-2-0-|-0--0-0-0-2--2-2-2-|-0--0-0-0-(0)-0-0-0-0-0-|
|----------3--3-3---|----------3--3-3-3-|------------------------|
|-3--3-3-3--------3-|-3--3-3-3----------|------------------------|


Chorus
Cadd9 G5
E E S E S +S E S +S S S S E E E S S +E E E S S
|-0-0-0-0-0-(0)-0-0-(0)-0-0-3-||-3-3-3-3-3-(3)-3-3-3-3-|
|-3-3-3-3-3-(3)-3-3-(3)-3-3-3-||-3-3-3-3-3-(3)-3-3-3-3-|
|-0-0-0-0-0-(0)-0-0-(0)-0-0-0-||-0-0-0-0-0-(0)-0-0-0-0-|
|-2-2-2-2-2-(2)-2-2-(2)-2-2-0-||-0-0-0-0-0-(0)-0-0-0-0-|
|-3-3-3-3-3-(3)-3-3-(3)-3-3---||-----------------------|
|---------------------------3-||-3-3-3-3-3-(3)-3-3-3-3-|


Cadd9 G5
E E E S S +S S S S +S S S S
|-3-3-3-3-3-(3)-3-3-3-(3)-3-3-3---|
|-3-3-3-3-3-(3)-3-3-3-(3)-3-3-3---|
|-0-0-0-0-0-(0)-0-0-0-(0)-0-0-0---|
|-2-2-2-2-2-(2)-2-2-2-(2)-2-2-0---|
|-3-3-3-3-3-(3)-3-3-3-(3)-3-3-----|
|-----------------------------3---|


Cadd9 G5 D Dsus4
E E E S S +S S S S +S S S S E E E. S E E S E S E E E S S E E S E S
|-3-3-3-3-3-(3)-3-3-3-(3)-3-3-3-|-3-3-3--3-3-3-3-3-3-|-3-3-3-3-3-2-2-3-3-3--|
|-3-3-3-3-3-(3)-3-3-3-(3)-3-3-3-|-3-3-3--3-3-3-3-3-3-|-3-3-3-3-3-3-3-3-3-3--|
|-0-0-0-0-0-(0)-0-0-0-(0)-0-0-0-|-0-0-0--0-0-0-0-0-0-|-0-0-0-0-0-2-2-2-2-2--|
|-0-0-0-0-0-(0)-0-0-0-(0)-0-0-0-|-2-2-2--2-2-2-2-2-2-|-0-0-0-0-0-0-0-0-0-0--|
|-------------------------------|-3-3-3--3-3-3-3-3-3-|----------------------|
|-3-3-3-3-3-(3)-3-3-3-(3)-3-3-3-|--------------------|-3-3-3-3-3------------|


Cadd9 G5 Cadd9
Gtr I
W W H. +S E S
| | | |
/ / / /

Gtr II
E E S E S E E S S S S E E S E S E E S E S W
|-3-3-3-3-3-3-3-3-3-3-3-|-3-3-3-3-3-3-3-3-3-3-||-!3---------------||
|-3-3-3-3-3-3-3-3-3-3-3-|-3-3-3-3-3-3-3-3-3-3-||-!3---------------||
|-0-0-0-0-0-0-0-0-0-0-0-|-0-0-0-0-0-0-0-0-0-0-||-!0---------------||
|-2-2-2-2-2-0-0-0-0-0-0-|-0-0-0-0-0-0-0-0-0-0-||-!2---------------||
|-3-3-3-3-3-------------|---------------------||-!3---------------||
|-----------3-3-3-3-3-3-|-3-3-3-3-3-3-3-3-3-3-||------------------||


1st Guitar Solo
G5 Cadd9
E E E S S E E S S S S E E E. S +S S S S +S S S S
| | | | | | | | | | | | | | | | | | | | | | |
/ / / / / / / / / / / / / / / / / / / / / / /

Gtr III
~~~~~~ ~~
Q Q +E E Q H +S S S S T T S T T S
|-------------------------------------------|-----------------------------------------------|
|-----12-----------(12)---------15b17-------|-15------------(15)-------------------13p12----|
|-----14b16========(14)r-------------------|--------------------------12-14p12----------12-|
|-------------------------------------------|--------------------12h14----------14----------|
|-------------------------------------------|-----------------------------------------------|
|-------------------------------------------|-----------------------------------------------|
|
| Gtr II
| Q S S S S +S S S S S S S S Q S S S S +S S S S S S S S
|------3---------3--(3)-----3-------------3-|--3---3------3--(3)--------3-------------------|
|------3-----3-------------------3------3---|--3------3--------------3-----------3--------3-|
|------0-------0----------0---0-------0-----|--0--------0---------0--------0----------------|
|------0------------------------------------|--2------------------------------------2-------|
|-------------------------------------------|--3--------------------------------------------|
|-3----3------------------------------------|-----------------------------------------------|
|
| W W
|-------------------------------------------|-----------------------------------------------|
|-------------------------------------------|-----------------------------------------------|
|-------------------------------------------|-----------------------------------------------|
|-------------------------------------------|-----------------------------------------------|
|-------------------------------------------|-----------------------------------------------|
|-------------------------------------------|-----------------------------------------------|


G5 Cadd9
E E E S S E E S S S S E E E S S +S S S S +S S S S
| | | | | | | | | | | | | | | | | | | | | | | |
/ / / / / / / / / / / / / / / / / / / / / / / /

Q E +S S Q Q H. Q
|------------------------------------15b17-------|-15--------------------------------||
|-12---------------------------------------------|-----------------------12b13-------||
|-14b16---14b16====(14)r------------------------|-----------------------------------||
|------------------------------------------------|-----------------------------------||
|------------------------------------------------|-----------------------------------||
|------------------------------------------------|-----------------------------------||
|
| Q S S S S +S E. E. S Q E S S +S S S S Q
|----------3--------------3-(3)-------3--------3-|--3----3---3-(3)-----3--3----------||
|----------3-----3--------------------3--------3-|--3----3-3---------3----3----------||
|----------0---------0----------------0--------0-|--0----0---------0------0----------||
|----------0--------------------0-----0--------0-|--2----2----------------2----------||
|------------------------------------------------|--3----3----------------3----------||
|--3-------3--------------------------3--------3-|-----------------------------------||
|
| Gtr IV
| ~~~
| H Q Q H. Q
|------------------------------------------------|-----------------------------------||
|------------------------------------13----------|-13--------------------------------||
|------------------------------------------------|-----------------------12b14-------||
|------------------------------------------------|-----------------------------------||
|------------------------------------------------|-----------------------------------||
|------------------------------------------------|-----------------------------------||


2nd Verse
G5 Cadd9 G5
E E E S S E E S S S S Q E S S +S S E S S S S Q E S S +S S E S S S S
| | | | | | | | | | | | | | | | | | | | | | | | | | | | | | | | |
/ / / / / / / / / / / / / / / / / / / / / / / / / / / / / / / / /

~~
W W W
|------------------------|-------------------------|---------------------------|
|-12---------------------|-------------------------|---------------------------|
|------------------------|-------------------------|---------------------------|
|------------------------|-------------------------|---------------------------|
|------------------------|-------------------------|---------------------------|
|------------------------|-------------------------|---------------------------|
|
| W W W
|--3---------------------|-------------------------|---------------------------|
|--3---------------------|-------------------------|---------------------------|
|--0---------------------|-------------------------|---------------------------|
|--0---------------------|-------------------------|---------------------------|
|------------------------|-------------------------|---------------------------|
|--3---------------------|-------------------------|---------------------------|
|
| ~~
| W W W
|------------------------|-------------------------|---------------------------|
|------------------------|-------------------------|---------------------------|
|-12---------------------|-------------------------|---------------------------|
|------------------------|-------------------------|---------------------------|
|------------------------|-------------------------|---------------------------|
|------------------------|-------------------------|---------------------------|


Cadd9 G5 Cadd9 G5 Cadd9
E E S E S +S S E S S S S E E E. S E E S S S S E E S S S S E E S S S S
| | | | | | | | | | | | | | | | | | | | | | | | | | | | | | | | | |
/ / / / / / / / / / / / / / / / / / / / / / / / / / / / / / / / / /

W W W
|--------------------------|----------------------|-------------------------|
|--------------------------|----------------------|-------------------------|
|--------------------------|----------------------|-------------------------|
|--------------------------|----------------------|-------------------------|
|--------------------------|----------------------|-------------------------|
|--------------------------|----------------------|-------------------------|


D Cadd9(type 2)
Q S S S S Q S S S S Q S S S S E E S S S S
| | | | | | | | | | | | | | | | | | | | |
/ / / / / / / / / / / / / / / / / / / / /

Gtr II
H S E S +S T T S S H S S S S +S S S S
|-2------------2-3-(3)-2h3p2---|-3----------------------------||
|-3----------3---------------3-|-3----------------------------||
|-2----------------------------|-0--------------0-----------0-||
|-0----------------------------|-2------------2-----------0---||
|------------------------------|-3----------3-----2-(2)-------||
|------------------------------|------------------------3-----||


Chorus
G5
E E E S S +E E E S S
| | | | | | | | | |
/ / / / / / / / / /

S S S S +S S S S S S S S +S S S S
|-------3-(3)--------------3-(3)--------|
|-------------3---3--------------3---3--|
|-----0---------0--------0---------0----|
|---0------------------0----------------|
|-2-------------------------------------|
|-3------------------3------------------|


Cadd9
E E E S S +S S S S +S S S S
| | | | | | | | | | | | |
/ / / / / / / / / / / / /

S S S S +S S S S S S S S S S S S
|-------3-(3)--------------3----------|
|-------------3---3-----------3-------|
|-----0---------0--------0------0---0-|
|---2------------------2----------0---|
|-3------------------3----------------|
|-------------------------------------|


G5 Cadd9
E E E S S +S S S S +S S S S E E E. S E E S E S
| | | | | | | | | | | | | | | | | | | | | |
/ / / / / / / / / / / / / / / / / / / / / /

S S S S +S S S S S S S S +S S S S S S S S +S S S S S S S S S S S S
|-------3-(3)--------------3-(3)-------|-------3-(3)-------------3---------|
|-------------3---3--------------3---3-|-------------3---3---------3-------|
|-----0---------0--------0---------0---|-----0---------0-------0-----0---0-|
|---0------------------0---------------|---2-----------------2---------0---|
|--------------------2-----------------|-3-----------------3---------------|
|-3------------------------------------|-----------------------------------|


G5 D Dsus4 Cadd9 G5
E E E S S E E S E S E E S E S E E S S S S
| | | | | | | | | | | | | | | | | | | | |
/ / / / / / / / / / / / / / / / / / / / /

S S S S S S S S S S S S S S S S S S S S S S S S S S S S +S S S S
|-------3-3-------------2-3---2---|---------3-------------3-(3)-------|
|-----------3---------3-----------|-------3---3---3-------------3---3-|
|-----0---------0---2-------0-----|-----0-------0-------0---------0---|
|---0---------0---0-------------0-|---2---------------0---------------|
|---------------------------------|-3---------------------------------|
|-3-------------------------------|-----------------3-----------------|


E E S E S E E S E S
| | | | | | | | | |
/ / / / / / / / / /

S S S S +S S S S S S S S +S S S S
|-------3-(3)-------------3-(3)-------|
|-------------3---3-------------3---3-|
|-----0---------0-------0---------0---|
|---0-----------------0---------------|
|-------------------------------------|
|-3-----------------3-----------------|


Bridge
Cadd9 Em D
Q E. S +S S E +S S S S E E S S S S E E S S S S
| | | | | | | | | | | | | | | | | | | | | |
/ / / / / / / / / / / / / / / / / / / / / /

Gtr III
~~~~~~~~~~~~~~~~~~~~~~~~~
W H H
|-!3-----------------------||-------------------------|
|-!3-----------------------||-------------------------|
|-!0-----------------------||-------------------------|
|-!2-----------------------||-------------------------|
|-!3-----------------------||-7-----------5-----------|
|--------------------------||-------------------------|


Cadd9 G5
E E S S S S E E S S S S
| | | | | | | | | | | |
/ / / / / / / / / / / /

~~~
H Q S E.
|----------------------------|
|----------------------------|
|----------------------------|
|----------------------------|
|-3--------------------------|
|-------------3-----2--------|


Em D Cadd9
E E S S S S E E S S S S E E E. S +S E S S S S S
| | | | | | | | | | | | | | | | | | | | | | |
/ / / / / / / / / / / / / / / / / / / / / / /

~~~~~~~~~~~~~~~~~~~~~~~~~~~~~
H H H. +E E
|-------------------------|----------------------------||
|-------------------------|----------------------------||
|-------------------------|----------------------------||
|-------------------------|----------------------------||
|-7-----------5-----------|-7----------------(7)-------||
|-------------------------|----------------------------||


2nd Guitar Solo
G5
E E E S S +E E E S S
| | | | | | | | | |
/ / / / / / / / / /

Q. +E H
|--------------------------|
|-6b8-----(6)s==12---------|
|--------------------------|
|--------------------------|
|--------------------------|
|--------------------------|


Cadd9
E E E S S +S S S S +S S S S
| | | | | | | | | | | | |
/ / / / / / / / / / / / /

|-----3-----| |---3---|
+E a E E E E E E +E S S +E
|-----------------------------------------------------------|
|-(12)-12h13---12-13-12---13-------------------15-----------|
|------------------------------14b16====(14)------14r(14)---|
|-----------------------------------------------------------|
|-----------------------------------------------------------|
|-----------------------------------------------------------|


G5 Cadd9
E E E S S +S S S S +S S S S E E E. S E E S E S
| | | | | | | | | | | | | | | | | | | | | |
/ / / / / / / / / / / / / / / / / / / / / /

~~ ~~~~
|--3--| |--3--| |---3---| |---3---|
H +E E Q +H S S S S S S S S S S S S
|-------------------------------------|---------------------------------------------------------|
|------------------------15pb17r======|=(15)--------13p12----12---------------------------------|
|-12---------(12)--------------------|-------------------14----14p12-14p12s==11-12p11----------|
|-------------------------------------|--------------------------------------------------12s====|
|-------------------------------------|---------------------------------------------------------|
|-------------------------------------|---------------------------------------------------------|


Em D
E E S S S S E E S S S S
| | | | | | | | | | | |
/ / / / / / / / / / / /

1/
Q +E E Q Q
|------------------------------------|
|------------------------------------|
|--------------------11h==12p========|
|-14---(14)-------------------------|
|--------------(3)-------------------|
|------------------------------------|


Cadd9 G5 Em D
E E S S S S E E S S S S E E S S S S E E S S S S
| | | | | | | | | | | | | | | | | | | | | | | |
/ / / / / / / / / / / / / / / / / / / / / / / /

1/ 1/ 1/
~~
H E S S +S S E Q E E Q Q
|---------------------15--------------15----------|-15---15---------------------------|
|---------------15b17----15b17==(15)r----15b17====|======15r--------------------------|
|-9-----------------------------------------------|-----------------/11h====12p========|
|-------------------------------------------------|------------------------------------|
|-------------------------------------------------|------------------------------------|
|-------------------------------------------------|------------------------------------|


Cadd9
E E E. S +S E S S S S S
| | | | | | | | | | |
/ / / / / / / / / / /

1/
Q +E E T T T T T T T T T T T T T T S
|----------------17p15----15-19p15-17p15----15-19p15-17p15----|
|----------------------17----------------17----------------17-|
|-9-----(9)s16------------------------------------------------|
|-------------------------------------------------------------|
|-------------------------------------------------------------|
|-------------------------------------------------------------|


G5 Cadd9 G5
H. +S S S S H. +S S S S
| | | | | | | | | |
/ / / / / / / / / /

~~~
H +H +W
|-15-----(15)-----------|-(15)-----------------|
|-----------------------|----------------------|
|-----------------------|----------------------|
|-----------------------|----------------------|
|-----------------------|----------------------|
|-----------------------|----------------------|


3rd Verse
Cadd9 G5 Cadd9
H. +S S S S H. +S S S S H. +S S S S
| | | | | | | | | | | | | | |
/ / / / / / / / / / / / / / /

+W W W
|-(15)---------------|------------------||--------------------|
|--------------------|------------------||--------------------|
|--------------------|------------------||--------------------|
|--------------------|------------------||--------------------|
|--------------------|------------------||--------------------|
|--------------------|------------------||--------------------|


G5 Cadd9 G5
H. +S S S S H. +S S S S H. +S S S S
| | | | | | | | | | | | | | |
/ / / / / / / / / / / / / / /

W W W
|------------------|------------------|-------------------|
|------------------|------------------|-------------------|
|------------------|------------------|-------------------|
|------------------|------------------|-------------------|
|------------------|------------------|-------------------|
|------------------|------------------|-------------------|


Cadd9 G5 Cadd9
E E S S S S E E S S S S E E S S S S E E S S S S
| | | | | | | | | | | | | | | | | | | | | | | |
/ / / / / / / / / / / / / / / / / / / / / / / /

W H Q E S S
|-------------------------|-------------------------------|
|-------------------------|-------------------------------|
|-------------------------|-----------------14b16r==14p12-|
|-------------------------|-------------------------------|
|-------------------------|-------------------------------|
|-------------------------|-------------------------------|
|
| W W
|-------------------------|-------------------------------|
|-------------------------|-------------------------------|
|-------------------------|-------------------------------|
|-------------------------|-------------------------------|
|-------------------------|-------------------------------|
|-------------------------|-------------------------------|


D Dsus4 D Dsus4 D
E E S E S +S S E S E S
| | | | | | | | | | |
/ / / / / / / / / / /

~~
H E S S +E S S
|-----------------------------------------------|
|------------------------15---------------------|
|-14-------------14b16------14b16==(14)---14r14-|
|-----------------------------------------------|
|-----------------------------------------------|
|-----------------------------------------------|
|
| Gtr II
| E S S S S S S S S S S S S S S
|----2-----2------2----------3p======2----------|
|------3-----3---------3----------------3-------|
|--------2-----2----------2----------------2----|
|--0------------------------------------------0-|
|-----------------------------------------------|
|-----------------------------------------------|


Cadd9 G/B
E E E. S E S S +S S S S
| | | | | | | | | | |
/ / / / / / / / / / /

~~
H S E S +S S S +S
|--------------------------------------------------||
|-----------------13--12----------------15---------||
|-12------------------------14b16==(14)----14r(14)-||
|--------------------------------------------------||
|--------------------------------------------------||
|--------------------------------------------------||
|
| E S S S S E +E Q.
|-----------3--------------------------------------||
|--------3-----------------------------------------||
|------0------0---(0)------------------------------||
|----2---------------------------------------------||
|--3---------------------2-------------------------||
|--------------------------------------------------||


Out-Chorus
G5 Cadd9
E E E S S +E E E S S E E E S S +S S S S +S S S S
| | | | | | | | | | | | | | | | | | | | | | |
/ / / / / / / / / / / / / / / / / / / / / / /

~~
H +E E Q Q Q +Q E. +S
|------------------------------------------|------------------------------------------------|
|------------------------------------------|---------15b17r======(15)-----------------------|
|-12-----------------(12)-----------------|--------------------------------14b16r====(14)--|
|------------------------------------------|------------------------------------------------|
|------------------------------------------|------------------------------------------------|
|------------------------------------------|------------------------------------------------|
|
| S S S S +S S S S S S S S +S S S S S S S S +S S S S S S S S S S S S
|--------3-(3)-----------------3-(3)-------|-------3-(3)------------------3-----------------|
|--------------3---3-----------------3---3-|---------------3---3-------------3--------------|
|------0---------0-----------0---------0---|-----0-----------0----------0---------0-----0---|
|----0---------------------0---------------|---2----------------------2-------------0-------|
|--2---------------------------------------|-3---------------------3------------------------|
|--3-------------------3-------------------|------------------------------------------------|


G5
E E E S S +S S S S +S S S S
| | | | | | | | | | | | |
/ / / / / / / / / / / / /

~~
H +E E Q
|-----------------------------------------|
|-----------------------------------------|
|-12-----------------(12)-----------------|
|-----------------------------------------|
|-----------------------------------------|
|-----------------------------------------|
|
| S S S S +S S S S S S S S +S S S S
|--------3-(3)----------------3-(3)-------|
|--------------3---3----------------3---3-|
|------0---------0----------0---------0---|
|----0--------------------0---------------|
|----------------------2------------------|
|--3--------------------------------------|


Cadd9 G5 D Dsus4
E E E. S E E S E S E E E S S E E S E S
| | | | | | | | | | | | | | | | | | |
/ / / / / / / / / / / / / / / / / / /

~~
E. S S S S S S E S +S S S +S H Q S S E
|-------------------------------------------------------|--------------------------------------|
|------------------------13-12---------------15---------|--------------------------------------|
|---------------12-14p12---------14b16==(14)----14r(14)-|-12---------------14-------16p14-14---|
|--------12h14------------------------------------------|--------------------------------------|
|-------------------------------------------------------|--------------------------------------|
|-------------------------------------------------------|--------------------------------------|
|
| S S S S +S S S S S S S S S S S S S S S S S S S S S S S S S S S S
|---------3-(3)-------------------3---------------------|--------3-3--------------2--3-----2---|
|----------------3-----3------------------3-------------|------------3----------3--------------|
|------0------------0----------0--------------0------0--|------0---------0----2---------0------|
|----2-----------------------2-------------------0------|----0---------0----0----------------0-|
|-3-----------------------3-----------------------------|--------------------------------------|
|-------------------------------------------------------|--3-----------------------------------|


Cadd9 G5
E E S E S E E S S S S
| | | | | | | | | | |
/ / / / / / / / / / /

~~ ~~~~~~~~~~~~~~~~~~~
Q S S S S H
|-----------------------------------------|
|-----------------------------------------|
|-12-------------------12-----------------|
|----------14p12-12h14--------------------|
|-----------------------------------------|
|-----------------------------------------|
|
| S S S S S S S S S S S S +S S S S
|-----------3-----------------3-(3)-------|
|--------3-----3-----3--------------3---3-|
|------0----------0---------0---------0---|
|----2--------------------0---------------|
|--3--------------------------------------|
|-----------------------3-----------------|


E E S E S E E S E S
| | | | | | | | | |
/ / / / / / / / / /

~~~~~~
+H H
|----------------------------------------|
|----------------------------------------|
|-(12)-----------------------------------|
|----------------------------------------|
|----------------------------------------|
|----------------------------------------|
|
| S S S S +S S S S S S S S +S S S S
|----------3-(3)-------------3-(3)-------|
|----------------3---3-------------3---3-|
|--------0---------0-------0---------0---|
|------0-----------------0---------------|
|----------------------------------------|
|---3------------------3-----------------|


Cadd9 D/F# G
Gtr I
H. +E E E E E E H
|-3-------(3)---|---------!3----*|
|-3-------(3)---|---------!3----*|
|-0-------(0)---|---------!0----*|
|-2-------(2)---|-----0---!0----*|
|-3-------(3)---|---0-----!2----*|
|-------------0-|-2-----0-!3----*|


Duration Legend
---------------
W - whole; H - half; Q - quarter; E - 8th; S - 16th; T - 32nd; X - 64th; a - acciaccatura
+ - note tied to previous; . - note dotted; .. - note double dotted
Uncapitalized letters represent notes that are staccato (1/2 duration)
Irregular groupings are notated above the duration line
Duration letters will always appear directly above the note/fret number it represents the
duration for. Duration letters with no fret number below them represent rests. Multi-
bar rests are notated in the form Wxn, where n is the number of bars to rest for. Low
melody durations appear below the staff

Tablature Legend
----------------
h - hammer-on
p - pull-off
b - bend
pb - pre-bend
r - bend release (if no number after the r, then release immediately)
/ - slide into or out of (from/to "nowhere")
s - legato slide
S - shift slide
- natural harmonic
[n] - artificial harmonic
n(n) - tapped harmonic
~ - vibrato
tr - trill
T - tap
TP - trem. picking
PM - palm muting

/ - tremolo bar dip; n = amount to dip

- tremolo bar down
n/ - tremolo bar up
/n - tremolo bar inverted dip
= - hold bend; also acts as connecting device for hammers/pulls
- volume swell (louder/softer)
x - on rhythm slash represents muted slash
o - on rhythm slash represents single note slash

Misc Legend
-----------
| - bar
|| - double bar
||o - repeat start
o|| - repeat end
*| - double bar (ending)
: - bar (freetime)
$ - Segno
and - Coda
Tempo markers - = BPM(8/16=s8/s16), where s8 = swing 8ths, s16 = swing 16ths
Interaktywna, graficzna tabela akordów - znajdziesz tu każdy akord z jego wariacjami oraz jego nazwą alternatywną
Warsztat każdego gitarzysty, unikalne narzędzia do edycji, transponowania, szukania akordów i wariacji, opracowywania utworów i wygodnego grania.
Jako zarejestrowany użytkownik stworzysz własny repertuar karaoke i tabulatur i sformatujesz je sobie tak jak lubisz.
Jeśli nagrałeś film możesz się nim pochwalić innym użytkownikom, skomentują i ocenią.
Jeśli znajdziesz w sieci coś ciekawego z branży muzycznej, podziel się z innymi.
Znajdziesz tu wszystko co potrzebne jest do nastrojenia gitary, teoria, porady i tuner .
Duży zbiór polskich piosenek - teksty , chwyty i tabulatury
Tutaj znajdziesz wszystko co musisz wiedzieć gdy kupujesz gitarę
Nie ma to jak własne kwity. Możesz je gromadzić i przechowywać na wyszalni i mieć je zawsze przy sobie.

Valid XHTML 1.0 Transitional